ISO-10303-21;
HEADER;
/* Generated by software containing ST-Developer
 * from STEP Tools, Inc. (www.steptools.com) 
 */

FILE_DESCRIPTION(
/* description */ (''),
/* implementation_level */ '2;1');

FILE_NAME(
/* name */ 'secondaire.step',
/* time_stamp */ '2026-02-22T12:13:02+01:00',
/* author */ (''),
/* organization */ (''),
/* preprocessor_version */ 'ST-DEVELOPER v20.1',
/* originating_system */ 'Autodesk Translation Framework v14.24.0.0',
/* authorisation */ '');

FILE_SCHEMA (('AUTOMOTIVE_DESIGN { 1 0 10303 214 3 1 1 }'));
ENDSEC;

DATA;
#10=MECHANICAL_DESIGN_GEOMETRIC_PRESENTATION_REPRESENTATION('',(#13),#510);
#11=SHAPE_REPRESENTATION_RELATIONSHIP('SRR','None',#517,#12);
#12=ADVANCED_BREP_SHAPE_REPRESENTATION('',(#14),#509);
#13=STYLED_ITEM('',(#526),#14);
#14=MANIFOLD_SOLID_BREP('Corps3',#277);
#15=B_SPLINE_CURVE_WITH_KNOTS('',3,(#482,#483,#484,#485),.UNSPECIFIED.,
 .F.,.F.,(4,4),(-0.0912036170375712,0.),.UNSPECIFIED.);
#16=B_SPLINE_CURVE_WITH_KNOTS('',3,(#486,#487,#488,#489),.UNSPECIFIED.,
 .F.,.F.,(4,4),(-0.0912036170374902,0.),.UNSPECIFIED.);
#17=ELLIPSE('',#304,16.1220346110533,11.4);
#18=ELLIPSE('',#305,16.9705627484771,12.);
#19=ELLIPSE('',#306,16.9705627484771,12.);
#20=ELLIPSE('',#307,16.1220346110533,11.4);
#21=ELLIPSE('',#312,16.1220346110533,11.4);
#22=ELLIPSE('',#313,16.1220346110533,11.4);
#23=CYLINDRICAL_SURFACE('',#297,2.05);
#24=CYLINDRICAL_SURFACE('',#301,2.05);
#25=CYLINDRICAL_SURFACE('',#308,12.);
#26=CYLINDRICAL_SURFACE('',#324,11.4);
#27=FACE_BOUND('',#59,.T.);
#28=FACE_BOUND('',#60,.T.);
#29=PLANE('',#294);
#30=PLANE('',#303);
#31=PLANE('',#311);
#32=PLANE('',#314);
#33=PLANE('',#315);
#34=PLANE('',#320);
#35=PLANE('',#323);
#36=PLANE('',#326);
#37=PLANE('',#327);
#38=PLANE('',#328);
#39=FACE_OUTER_BOUND('',#57,.T.);
#40=FACE_OUTER_BOUND('',#58,.T.);
#41=FACE_OUTER_BOUND('',#61,.T.);
#42=FACE_OUTER_BOUND('',#62,.T.);
#43=FACE_OUTER_BOUND('',#63,.T.);
#44=FACE_OUTER_BOUND('',#64,.T.);
#45=FACE_OUTER_BOUND('',#65,.T.);
#46=FACE_OUTER_BOUND('',#66,.T.);
#47=FACE_OUTER_BOUND('',#67,.T.);
#48=FACE_OUTER_BOUND('',#68,.T.);
#49=FACE_OUTER_BOUND('',#69,.T.);
#50=FACE_OUTER_BOUND('',#70,.T.);
#51=FACE_OUTER_BOUND('',#71,.T.);
#52=FACE_OUTER_BOUND('',#72,.T.);
#53=FACE_OUTER_BOUND('',#73,.T.);
#54=FACE_OUTER_BOUND('',#74,.T.);
#55=FACE_OUTER_BOUND('',#75,.T.);
#56=FACE_OUTER_BOUND('',#76,.T.);
#57=EDGE_LOOP('',(#181,#182,#183,#184));
#58=EDGE_LOOP('',(#185,#186));
#59=EDGE_LOOP('',(#187));
#60=EDGE_LOOP('',(#188));
#61=EDGE_LOOP('',(#189,#190,#191,#192));
#62=EDGE_LOOP('',(#193,#194,#195,#196));
#63=EDGE_LOOP('',(#197,#198,#199,#200));
#64=EDGE_LOOP('',(#201,#202,#203,#204,#205,#206));
#65=EDGE_LOOP('',(#207,#208,#209,#210,#211,#212));
#66=EDGE_LOOP('',(#213,#214,#215,#216));
#67=EDGE_LOOP('',(#217,#218,#219,#220));
#68=EDGE_LOOP('',(#221,#222,#223,#224));
#69=EDGE_LOOP('',(#225,#226,#227,#228,#229));
#70=EDGE_LOOP('',(#230,#231));
#71=EDGE_LOOP('',(#232,#233,#234,#235));
#72=EDGE_LOOP('',(#236));
#73=EDGE_LOOP('',(#237,#238,#239,#240,#241,#242,#243,#244,#245,#246,#247,
#248));
#74=EDGE_LOOP('',(#249,#250,#251,#252));
#75=EDGE_LOOP('',(#253));
#76=EDGE_LOOP('',(#254));
#77=LINE('',#427,#92);
#78=LINE('',#432,#93);
#79=LINE('',#438,#94);
#80=LINE('',#442,#95);
#81=LINE('',#446,#96);
#82=LINE('',#453,#97);
#83=LINE('',#459,#98);
#84=LINE('',#463,#99);
#85=LINE('',#470,#100);
#86=LINE('',#474,#101);
#87=LINE('',#476,#102);
#88=LINE('',#477,#103);
#89=LINE('',#481,#104);
#90=LINE('',#498,#105);
#91=LINE('',#502,#106);
#92=VECTOR('',#335,2.3);
#93=VECTOR('',#340,10.);
#94=VECTOR('',#347,2.05);
#95=VECTOR('',#352,2.3);
#96=VECTOR('',#357,2.05);
#97=VECTOR('',#364,10.);
#98=VECTOR('',#369,10.);
#99=VECTOR('',#374,12.);
#100=VECTOR('',#383,10.);
#101=VECTOR('',#388,10.);
#102=VECTOR('',#389,10.);
#103=VECTOR('',#390,10.);
#104=VECTOR('',#393,10.);
#105=VECTOR('',#406,11.75);
#106=VECTOR('',#413,11.4);
#107=CIRCLE('',#292,2.55);
#108=CIRCLE('',#293,2.05);
#109=CIRCLE('',#295,11.4);
#110=CIRCLE('',#296,2.55);
#111=CIRCLE('',#298,2.05);
#112=CIRCLE('',#300,2.05);
#113=CIRCLE('',#302,2.05);
#114=CIRCLE('',#309,12.);
#115=CIRCLE('',#310,12.0000001788139);
#116=CIRCLE('',#317,11.4);
#117=CIRCLE('',#318,11.4);
#118=CIRCLE('',#319,10.9);
#119=CIRCLE('',#322,11.5);
#120=CIRCLE('',#325,11.4);
#121=VERTEX_POINT('',#424);
#122=VERTEX_POINT('',#426);
#123=VERTEX_POINT('',#430);
#124=VERTEX_POINT('',#431);
#125=VERTEX_POINT('',#434);
#126=VERTEX_POINT('',#437);
#127=VERTEX_POINT('',#441);
#128=VERTEX_POINT('',#445);
#129=VERTEX_POINT('',#449);
#130=VERTEX_POINT('',#450);
#131=VERTEX_POINT('',#452);
#132=VERTEX_POINT('',#454);
#133=VERTEX_POINT('',#456);
#134=VERTEX_POINT('',#458);
#135=VERTEX_POINT('',#462);
#136=VERTEX_POINT('',#467);
#137=VERTEX_POINT('',#469);
#138=VERTEX_POINT('',#473);
#139=VERTEX_POINT('',#475);
#140=VERTEX_POINT('',#479);
#141=VERTEX_POINT('',#480);
#142=VERTEX_POINT('',#491);
#143=VERTEX_POINT('',#497);
#144=EDGE_CURVE('',#121,#121,#107,.T.);
#145=EDGE_CURVE('',#121,#122,#77,.T.);
#146=EDGE_CURVE('',#122,#122,#108,.T.);
#147=EDGE_CURVE('',#123,#124,#78,.T.);
#148=EDGE_CURVE('',#123,#124,#109,.T.);
#149=EDGE_CURVE('',#125,#125,#110,.T.);
#150=EDGE_CURVE('',#122,#126,#79,.T.);
#151=EDGE_CURVE('',#126,#126,#111,.T.);
#152=EDGE_CURVE('',#125,#127,#80,.T.);
#153=EDGE_CURVE('',#127,#127,#112,.T.);
#154=EDGE_CURVE('',#127,#128,#81,.T.);
#155=EDGE_CURVE('',#128,#128,#113,.T.);
#156=EDGE_CURVE('',#129,#130,#17,.T.);
#157=EDGE_CURVE('',#131,#129,#82,.T.);
#158=EDGE_CURVE('',#132,#131,#18,.T.);
#159=EDGE_CURVE('',#133,#132,#19,.T.);
#160=EDGE_CURVE('',#134,#133,#83,.T.);
#161=EDGE_CURVE('',#130,#134,#20,.T.);
#162=EDGE_CURVE('',#132,#135,#84,.T.);
#163=EDGE_CURVE('',#135,#135,#114,.T.);
#164=EDGE_CURVE('',#133,#131,#115,.T.);
#165=EDGE_CURVE('',#124,#136,#21,.F.);
#166=EDGE_CURVE('',#136,#137,#85,.T.);
#167=EDGE_CURVE('',#137,#123,#22,.F.);
#168=EDGE_CURVE('',#136,#138,#86,.T.);
#169=EDGE_CURVE('',#139,#138,#87,.T.);
#170=EDGE_CURVE('',#139,#137,#88,.T.);
#171=EDGE_CURVE('',#140,#141,#89,.T.);
#172=EDGE_CURVE('',#141,#139,#15,.T.);
#173=EDGE_CURVE('',#140,#138,#16,.T.);
#174=EDGE_CURVE('',#138,#142,#116,.T.);
#175=EDGE_CURVE('',#142,#139,#117,.T.);
#176=EDGE_CURVE('',#141,#140,#118,.T.);
#177=EDGE_CURVE('',#135,#143,#90,.T.);
#178=EDGE_CURVE('',#143,#143,#119,.T.);
#179=EDGE_CURVE('',#130,#142,#91,.T.);
#180=EDGE_CURVE('',#129,#134,#120,.T.);
#181=ORIENTED_EDGE('',*,*,#144,.T.);
#182=ORIENTED_EDGE('',*,*,#145,.T.);
#183=ORIENTED_EDGE('',*,*,#146,.T.);
#184=ORIENTED_EDGE('',*,*,#145,.F.);
#185=ORIENTED_EDGE('',*,*,#147,.F.);
#186=ORIENTED_EDGE('',*,*,#148,.T.);
#187=ORIENTED_EDGE('',*,*,#149,.F.);
#188=ORIENTED_EDGE('',*,*,#144,.F.);
#189=ORIENTED_EDGE('',*,*,#146,.F.);
#190=ORIENTED_EDGE('',*,*,#150,.T.);
#191=ORIENTED_EDGE('',*,*,#151,.T.);
#192=ORIENTED_EDGE('',*,*,#150,.F.);
#193=ORIENTED_EDGE('',*,*,#149,.T.);
#194=ORIENTED_EDGE('',*,*,#152,.T.);
#195=ORIENTED_EDGE('',*,*,#153,.T.);
#196=ORIENTED_EDGE('',*,*,#152,.F.);
#197=ORIENTED_EDGE('',*,*,#153,.F.);
#198=ORIENTED_EDGE('',*,*,#154,.T.);
#199=ORIENTED_EDGE('',*,*,#155,.T.);
#200=ORIENTED_EDGE('',*,*,#154,.F.);
#201=ORIENTED_EDGE('',*,*,#156,.F.);
#202=ORIENTED_EDGE('',*,*,#157,.F.);
#203=ORIENTED_EDGE('',*,*,#158,.F.);
#204=ORIENTED_EDGE('',*,*,#159,.F.);
#205=ORIENTED_EDGE('',*,*,#160,.F.);
#206=ORIENTED_EDGE('',*,*,#161,.F.);
#207=ORIENTED_EDGE('',*,*,#159,.T.);
#208=ORIENTED_EDGE('',*,*,#162,.T.);
#209=ORIENTED_EDGE('',*,*,#163,.F.);
#210=ORIENTED_EDGE('',*,*,#162,.F.);
#211=ORIENTED_EDGE('',*,*,#158,.T.);
#212=ORIENTED_EDGE('',*,*,#164,.F.);
#213=ORIENTED_EDGE('',*,*,#165,.T.);
#214=ORIENTED_EDGE('',*,*,#166,.T.);
#215=ORIENTED_EDGE('',*,*,#167,.T.);
#216=ORIENTED_EDGE('',*,*,#147,.T.);
#217=ORIENTED_EDGE('',*,*,#166,.F.);
#218=ORIENTED_EDGE('',*,*,#168,.T.);
#219=ORIENTED_EDGE('',*,*,#169,.F.);
#220=ORIENTED_EDGE('',*,*,#170,.T.);
#221=ORIENTED_EDGE('',*,*,#171,.T.);
#222=ORIENTED_EDGE('',*,*,#172,.T.);
#223=ORIENTED_EDGE('',*,*,#169,.T.);
#224=ORIENTED_EDGE('',*,*,#173,.F.);
#225=ORIENTED_EDGE('',*,*,#174,.T.);
#226=ORIENTED_EDGE('',*,*,#175,.T.);
#227=ORIENTED_EDGE('',*,*,#172,.F.);
#228=ORIENTED_EDGE('',*,*,#176,.T.);
#229=ORIENTED_EDGE('',*,*,#173,.T.);
#230=ORIENTED_EDGE('',*,*,#171,.F.);
#231=ORIENTED_EDGE('',*,*,#176,.F.);
#232=ORIENTED_EDGE('',*,*,#163,.T.);
#233=ORIENTED_EDGE('',*,*,#177,.T.);
#234=ORIENTED_EDGE('',*,*,#178,.T.);
#235=ORIENTED_EDGE('',*,*,#177,.F.);
#236=ORIENTED_EDGE('',*,*,#178,.F.);
#237=ORIENTED_EDGE('',*,*,#156,.T.);
#238=ORIENTED_EDGE('',*,*,#179,.T.);
#239=ORIENTED_EDGE('',*,*,#174,.F.);
#240=ORIENTED_EDGE('',*,*,#168,.F.);
#241=ORIENTED_EDGE('',*,*,#165,.F.);
#242=ORIENTED_EDGE('',*,*,#148,.F.);
#243=ORIENTED_EDGE('',*,*,#167,.F.);
#244=ORIENTED_EDGE('',*,*,#170,.F.);
#245=ORIENTED_EDGE('',*,*,#175,.F.);
#246=ORIENTED_EDGE('',*,*,#179,.F.);
#247=ORIENTED_EDGE('',*,*,#161,.T.);
#248=ORIENTED_EDGE('',*,*,#180,.F.);
#249=ORIENTED_EDGE('',*,*,#160,.T.);
#250=ORIENTED_EDGE('',*,*,#164,.T.);
#251=ORIENTED_EDGE('',*,*,#157,.T.);
#252=ORIENTED_EDGE('',*,*,#180,.T.);
#253=ORIENTED_EDGE('',*,*,#155,.F.);
#254=ORIENTED_EDGE('',*,*,#151,.F.);
#255=CONICAL_SURFACE('',#291,2.3,0.785398163397448);
#256=CONICAL_SURFACE('',#299,2.3,0.785398163397448);
#257=CONICAL_SURFACE('',#316,11.15,0.785398163397449);
#258=CONICAL_SURFACE('',#321,11.75,0.785398163397449);
#259=ADVANCED_FACE('',(#39),#255,.F.);
#260=ADVANCED_FACE('',(#40,#27,#28),#29,.T.);
#261=ADVANCED_FACE('',(#41),#23,.F.);
#262=ADVANCED_FACE('',(#42),#256,.F.);
#263=ADVANCED_FACE('',(#43),#24,.F.);
#264=ADVANCED_FACE('',(#44),#30,.F.);
#265=ADVANCED_FACE('',(#45),#25,.T.);
#266=ADVANCED_FACE('',(#46),#31,.T.);
#267=ADVANCED_FACE('',(#47),#32,.T.);
#268=ADVANCED_FACE('',(#48),#33,.T.);
#269=ADVANCED_FACE('',(#49),#257,.F.);
#270=ADVANCED_FACE('',(#50),#34,.T.);
#271=ADVANCED_FACE('',(#51),#258,.T.);
#272=ADVANCED_FACE('',(#52),#35,.F.);
#273=ADVANCED_FACE('',(#53),#26,.F.);
#274=ADVANCED_FACE('',(#54),#36,.T.);
#275=ADVANCED_FACE('',(#55),#37,.T.);
#276=ADVANCED_FACE('',(#56),#38,.T.);
#277=CLOSED_SHELL('',(#259,#260,#261,#262,#263,#264,#265,#266,#267,#268,
#269,#270,#271,#272,#273,#274,#275,#276));
#278=DERIVED_UNIT_ELEMENT(#280,1.);
#279=DERIVED_UNIT_ELEMENT(#512,-3.);
#280=(
MASS_UNIT()
NAMED_UNIT(*)
SI_UNIT(.KILO.,.GRAM.)
);
#281=DERIVED_UNIT((#278,#279));
#282=MEASURE_REPRESENTATION_ITEM('density measure',
POSITIVE_RATIO_MEASURE(7850.),#281);
#283=PROPERTY_DEFINITION_REPRESENTATION(#288,#285);
#284=PROPERTY_DEFINITION_REPRESENTATION(#289,#286);
#285=REPRESENTATION('material name',(#287),#509);
#286=REPRESENTATION('density',(#282),#509);
#287=DESCRIPTIVE_REPRESENTATION_ITEM('Acier','Acier');
#288=PROPERTY_DEFINITION('material property','material name',#519);
#289=PROPERTY_DEFINITION('material property','density of part',#519);
#290=AXIS2_PLACEMENT_3D('',#422,#329,#330);
#291=AXIS2_PLACEMENT_3D('',#423,#331,#332);
#292=AXIS2_PLACEMENT_3D('',#425,#333,#334);
#293=AXIS2_PLACEMENT_3D('',#428,#336,#337);
#294=AXIS2_PLACEMENT_3D('',#429,#338,#339);
#295=AXIS2_PLACEMENT_3D('',#433,#341,#342);
#296=AXIS2_PLACEMENT_3D('',#435,#343,#344);
#297=AXIS2_PLACEMENT_3D('',#436,#345,#346);
#298=AXIS2_PLACEMENT_3D('',#439,#348,#349);
#299=AXIS2_PLACEMENT_3D('',#440,#350,#351);
#300=AXIS2_PLACEMENT_3D('',#443,#353,#354);
#301=AXIS2_PLACEMENT_3D('',#444,#355,#356);
#302=AXIS2_PLACEMENT_3D('',#447,#358,#359);
#303=AXIS2_PLACEMENT_3D('',#448,#360,#361);
#304=AXIS2_PLACEMENT_3D('',#451,#362,#363);
#305=AXIS2_PLACEMENT_3D('',#455,#365,#366);
#306=AXIS2_PLACEMENT_3D('',#457,#367,#368);
#307=AXIS2_PLACEMENT_3D('',#460,#370,#371);
#308=AXIS2_PLACEMENT_3D('',#461,#372,#373);
#309=AXIS2_PLACEMENT_3D('',#464,#375,#376);
#310=AXIS2_PLACEMENT_3D('',#465,#377,#378);
#311=AXIS2_PLACEMENT_3D('',#466,#379,#380);
#312=AXIS2_PLACEMENT_3D('',#468,#381,#382);
#313=AXIS2_PLACEMENT_3D('',#471,#384,#385);
#314=AXIS2_PLACEMENT_3D('',#472,#386,#387);
#315=AXIS2_PLACEMENT_3D('',#478,#391,#392);
#316=AXIS2_PLACEMENT_3D('',#490,#394,#395);
#317=AXIS2_PLACEMENT_3D('',#492,#396,#397);
#318=AXIS2_PLACEMENT_3D('',#493,#398,#399);
#319=AXIS2_PLACEMENT_3D('',#494,#400,#401);
#320=AXIS2_PLACEMENT_3D('',#495,#402,#403);
#321=AXIS2_PLACEMENT_3D('',#496,#404,#405);
#322=AXIS2_PLACEMENT_3D('',#499,#407,#408);
#323=AXIS2_PLACEMENT_3D('',#500,#409,#410);
#324=AXIS2_PLACEMENT_3D('',#501,#411,#412);
#325=AXIS2_PLACEMENT_3D('',#503,#414,#415);
#326=AXIS2_PLACEMENT_3D('',#504,#416,#417);
#327=AXIS2_PLACEMENT_3D('',#505,#418,#419);
#328=AXIS2_PLACEMENT_3D('',#506,#420,#421);
#329=DIRECTION('axis',(0.,0.,1.));
#330=DIRECTION('refdir',(1.,0.,0.));
#331=DIRECTION('center_axis',(0.,0.,1.));
#332=DIRECTION('ref_axis',(-1.,0.,0.));
#333=DIRECTION('center_axis',(0.,0.,1.));
#334=DIRECTION('ref_axis',(-1.,0.,0.));
#335=DIRECTION('',(-0.707106781186547,-8.65956056235493E-17,-0.707106781186548));
#336=DIRECTION('center_axis',(0.,0.,-1.));
#337=DIRECTION('ref_axis',(-1.,0.,0.));
#338=DIRECTION('center_axis',(0.,0.,1.));
#339=DIRECTION('ref_axis',(-1.,0.,0.));
#340=DIRECTION('',(0.,1.,0.));
#341=DIRECTION('center_axis',(0.,0.,1.));
#342=DIRECTION('ref_axis',(1.,0.,0.));
#343=DIRECTION('center_axis',(0.,0.,1.));
#344=DIRECTION('ref_axis',(-1.,0.,0.));
#345=DIRECTION('center_axis',(0.,0.,-1.));
#346=DIRECTION('ref_axis',(-1.,0.,0.));
#347=DIRECTION('',(0.,0.,-1.));
#348=DIRECTION('center_axis',(0.,0.,-1.));
#349=DIRECTION('ref_axis',(-1.,0.,0.));
#350=DIRECTION('center_axis',(0.,0.,1.));
#351=DIRECTION('ref_axis',(-1.,0.,0.));
#352=DIRECTION('',(-0.707106781186547,-8.65956056235493E-17,-0.707106781186548));
#353=DIRECTION('center_axis',(0.,0.,-1.));
#354=DIRECTION('ref_axis',(-1.,0.,0.));
#355=DIRECTION('center_axis',(0.,0.,-1.));
#356=DIRECTION('ref_axis',(-1.,0.,0.));
#357=DIRECTION('',(0.,0.,-1.));
#358=DIRECTION('center_axis',(0.,0.,-1.));
#359=DIRECTION('ref_axis',(-1.,0.,0.));
#360=DIRECTION('center_axis',(0.707106781186547,0.,-0.707106781186548));
#361=DIRECTION('ref_axis',(-0.707106781186548,0.,-0.707106781186547));
#362=DIRECTION('center_axis',(-0.707106781186547,0.,0.707106781186548));
#363=DIRECTION('ref_axis',(0.707106781186548,0.,0.707106781186547));
#364=DIRECTION('',(0.,-1.,0.));
#365=DIRECTION('center_axis',(0.707106781186547,0.,-0.707106781186548));
#366=DIRECTION('ref_axis',(0.707106781186548,0.,0.707106781186547));
#367=DIRECTION('center_axis',(0.707106781186547,0.,-0.707106781186548));
#368=DIRECTION('ref_axis',(0.707106781186548,0.,0.707106781186547));
#369=DIRECTION('',(0.,-1.,0.));
#370=DIRECTION('center_axis',(-0.707106781186547,0.,0.707106781186548));
#371=DIRECTION('ref_axis',(0.707106781186548,0.,0.707106781186547));
#372=DIRECTION('center_axis',(0.,0.,1.));
#373=DIRECTION('ref_axis',(1.,0.,0.));
#374=DIRECTION('',(0.,0.,-1.));
#375=DIRECTION('center_axis',(0.,0.,-1.));
#376=DIRECTION('ref_axis',(1.,0.,0.));
#377=DIRECTION('center_axis',(0.,0.,1.));
#378=DIRECTION('ref_axis',(1.,0.,0.));
#379=DIRECTION('center_axis',(-0.707106781186548,0.,0.707106781186547));
#380=DIRECTION('ref_axis',(0.707106781186547,0.,0.707106781186548));
#381=DIRECTION('center_axis',(0.707106781186548,0.,-0.707106781186547));
#382=DIRECTION('ref_axis',(0.707106781186547,0.,0.707106781186548));
#383=DIRECTION('',(0.,-1.,0.));
#384=DIRECTION('center_axis',(0.707106781186548,0.,-0.707106781186547));
#385=DIRECTION('ref_axis',(0.707106781186547,0.,0.707106781186548));
#386=DIRECTION('center_axis',(-1.,0.,0.));
#387=DIRECTION('ref_axis',(0.,-1.,0.));
#388=DIRECTION('',(0.,0.,-1.));
#389=DIRECTION('',(0.,1.,0.));
#390=DIRECTION('',(0.,0.,1.));
#391=DIRECTION('center_axis',(-0.707106781186548,0.,0.707106781186548));
#392=DIRECTION('ref_axis',(0.707106781186548,0.,0.707106781186548));
#393=DIRECTION('',(0.,-1.,0.));
#394=DIRECTION('center_axis',(0.,0.,1.));
#395=DIRECTION('ref_axis',(-1.,0.,0.));
#396=DIRECTION('center_axis',(0.,0.,1.));
#397=DIRECTION('ref_axis',(-1.,0.,0.));
#398=DIRECTION('center_axis',(0.,0.,1.));
#399=DIRECTION('ref_axis',(-1.,0.,0.));
#400=DIRECTION('center_axis',(0.,0.,-1.));
#401=DIRECTION('ref_axis',(-1.,0.,0.));
#402=DIRECTION('center_axis',(0.,0.,1.));
#403=DIRECTION('ref_axis',(1.,0.,0.));
#404=DIRECTION('center_axis',(0.,0.,1.));
#405=DIRECTION('ref_axis',(1.,0.,0.));
#406=DIRECTION('',(0.707106781186548,8.65956056235494E-17,-0.707106781186547));
#407=DIRECTION('center_axis',(0.,0.,1.));
#408=DIRECTION('ref_axis',(1.,0.,0.));
#409=DIRECTION('center_axis',(0.,0.,1.));
#410=DIRECTION('ref_axis',(1.,0.,0.));
#411=DIRECTION('center_axis',(0.,0.,1.));
#412=DIRECTION('ref_axis',(1.,0.,0.));
#413=DIRECTION('',(0.,0.,-1.));
#414=DIRECTION('center_axis',(0.,0.,-1.));
#415=DIRECTION('ref_axis',(1.,0.,0.));
#416=DIRECTION('center_axis',(0.,0.,1.));
#417=DIRECTION('ref_axis',(1.,0.,0.));
#418=DIRECTION('center_axis',(0.,0.,1.));
#419=DIRECTION('ref_axis',(-1.,0.,0.));
#420=DIRECTION('center_axis',(0.,0.,1.));
#421=DIRECTION('ref_axis',(-1.,0.,0.));
#422=CARTESIAN_POINT('',(0.,0.,0.));
#423=CARTESIAN_POINT('Origin',(3.35593618716263,-5.03390428074396,10.75));
#424=CARTESIAN_POINT('',(5.90593618716263,-5.03390428074396,11.));
#425=CARTESIAN_POINT('Origin',(3.35593618716263,-5.03390428074396,11.));
#426=CARTESIAN_POINT('',(5.40593618716263,-5.03390428074396,10.5));
#427=CARTESIAN_POINT('',(5.65593618716263,-5.03390428074396,10.75));
#428=CARTESIAN_POINT('Origin',(3.35593618716263,-5.03390428074396,10.5));
#429=CARTESIAN_POINT('Origin',(5.33982616801451,0.,11.));
#430=CARTESIAN_POINT('',(-0.820347663970988,-11.3704454490674,11.));
#431=CARTESIAN_POINT('',(-0.820347663970988,11.3704454490674,11.));
#432=CARTESIAN_POINT('',(-0.820347663970988,5.96357028226897,11.));
#433=CARTESIAN_POINT('Origin',(0.,0.,11.));
#434=CARTESIAN_POINT('',(5.90593618716264,5.03390428074395,11.));
#435=CARTESIAN_POINT('Origin',(3.35593618716264,5.03390428074395,11.));
#436=CARTESIAN_POINT('Origin',(3.35593618716263,-5.03390428074396,11.));
#437=CARTESIAN_POINT('',(5.40593618716263,-5.03390428074396,7.5));
#438=CARTESIAN_POINT('',(5.40593618716263,-5.03390428074396,11.));
#439=CARTESIAN_POINT('Origin',(3.35593618716263,-5.03390428074396,7.5));
#440=CARTESIAN_POINT('Origin',(3.35593618716264,5.03390428074395,10.75));
#441=CARTESIAN_POINT('',(5.40593618716264,5.03390428074395,10.5));
#442=CARTESIAN_POINT('',(5.65593618716264,5.03390428074395,10.75));
#443=CARTESIAN_POINT('Origin',(3.35593618716264,5.03390428074395,10.5));
#444=CARTESIAN_POINT('Origin',(3.35593618716264,5.03390428074395,11.));
#445=CARTESIAN_POINT('',(5.40593618716264,5.03390428074395,7.5));
#446=CARTESIAN_POINT('',(5.40593618716264,5.03390428074395,11.));
#447=CARTESIAN_POINT('Origin',(3.35593618716264,5.03390428074395,7.5));
#448=CARTESIAN_POINT('Origin',(6.20797723007261,0.,30.0000004470348));
#449=CARTESIAN_POINT('',(3.20797678303777,10.9393274454827,27.));
#450=CARTESIAN_POINT('',(-11.4,-1.39609735102798E-15,12.3920232169622));
#451=CARTESIAN_POINT('Origin',(0.,0.,23.7920232169622));
#452=CARTESIAN_POINT('',(3.20797678303777,11.5632559969511,27.));
#453=CARTESIAN_POINT('',(3.20797678303777,0.,27.));
#454=CARTESIAN_POINT('',(-12.,-1.46957615897682E-15,11.7920232169622));
#455=CARTESIAN_POINT('Origin',(0.,0.,23.7920232169622));
#456=CARTESIAN_POINT('',(3.20797678303777,-11.5632559969511,27.));
#457=CARTESIAN_POINT('Origin',(0.,0.,23.7920232169622));
#458=CARTESIAN_POINT('',(3.20797678303777,-10.9393274454827,27.));
#459=CARTESIAN_POINT('',(3.20797678303777,0.,27.));
#460=CARTESIAN_POINT('Origin',(0.,0.,23.7920232169622));
#461=CARTESIAN_POINT('Origin',(0.,0.,0.));
#462=CARTESIAN_POINT('',(-12.,1.46957615897682E-15,0.5));
#463=CARTESIAN_POINT('',(-12.,-1.46957615897682E-15,0.));
#464=CARTESIAN_POINT('Origin',(0.,0.,0.5));
#465=CARTESIAN_POINT('Origin',(0.,0.,27.));
#466=CARTESIAN_POINT('Origin',(-1.07034766397099,5.96357028226897,10.75));
#467=CARTESIAN_POINT('',(-1.32034766397099,11.3232805337608,10.5));
#468=CARTESIAN_POINT('Origin',(0.,0.,11.820347663971));
#469=CARTESIAN_POINT('',(-1.32034766397099,-11.3232805337608,10.5));
#470=CARTESIAN_POINT('',(-1.32034766397099,5.96357028226897,10.5));
#471=CARTESIAN_POINT('Origin',(0.,0.,11.820347663971));
#472=CARTESIAN_POINT('Origin',(-1.32034766397099,11.9271405645379,1.));
#473=CARTESIAN_POINT('',(-1.32034766397099,11.3232805337608,1.5));
#474=CARTESIAN_POINT('',(-1.32034766397099,11.3232805337608,0.));
#475=CARTESIAN_POINT('',(-1.32034766397099,-11.3232805337608,1.5));
#476=CARTESIAN_POINT('',(-1.32034766397099,5.96357028226897,1.5));
#477=CARTESIAN_POINT('',(-1.32034766397099,-11.3232805337608,0.));
#478=CARTESIAN_POINT('Origin',(-1.57034766397099,5.96357028226897,1.25));
#479=CARTESIAN_POINT('',(-1.82034766397099,10.7469220887785,1.));
#480=CARTESIAN_POINT('',(-1.82034766397099,-10.7469220887785,1.));
#481=CARTESIAN_POINT('',(-1.82034766397099,5.96357028226897,1.));
#482=CARTESIAN_POINT('Ctrl Pts',(-1.82034766397099,-10.7469220887785,0.999999999999998));
#483=CARTESIAN_POINT('Ctrl Pts',(-1.65549709303498,-10.9420436833697,1.16485057093601));
#484=CARTESIAN_POINT('Ctrl Pts',(-1.48867318818139,-11.1341869948087,1.3316744757896));
#485=CARTESIAN_POINT('Ctrl Pts',(-1.32034766397099,-11.3232805337608,1.5));
#486=CARTESIAN_POINT('Ctrl Pts',(-1.82034766397099,10.7469220887785,1.));
#487=CARTESIAN_POINT('Ctrl Pts',(-1.65549709303491,10.9420436833698,1.16485057093608));
#488=CARTESIAN_POINT('Ctrl Pts',(-1.48867318818123,11.1341869948089,1.33167447578975));
#489=CARTESIAN_POINT('Ctrl Pts',(-1.32034766397099,11.3232805337608,1.5));
#490=CARTESIAN_POINT('Origin',(0.,0.,1.25));
#491=CARTESIAN_POINT('',(-11.4,-1.39609735102798E-15,1.5));
#492=CARTESIAN_POINT('Origin',(0.,0.,1.5));
#493=CARTESIAN_POINT('Origin',(0.,0.,1.5));
#494=CARTESIAN_POINT('Origin',(0.,0.,1.));
#495=CARTESIAN_POINT('Origin',(0.,0.,1.));
#496=CARTESIAN_POINT('Origin',(0.,0.,0.25));
#497=CARTESIAN_POINT('',(-11.5,-1.40834381901946E-15,0.));
#498=CARTESIAN_POINT('',(-11.75,-1.43895998899814E-15,0.25));
#499=CARTESIAN_POINT('Origin',(0.,0.,0.));
#500=CARTESIAN_POINT('Origin',(0.,0.,0.));
#501=CARTESIAN_POINT('Origin',(0.,0.,0.));
#502=CARTESIAN_POINT('',(-11.4,-1.39609735102798E-15,0.));
#503=CARTESIAN_POINT('Origin',(0.,0.,27.));
#504=CARTESIAN_POINT('Origin',(0.,0.,27.));
#505=CARTESIAN_POINT('Origin',(3.35593618716264,5.03390428074395,7.5));
#506=CARTESIAN_POINT('Origin',(3.35593618716263,-5.03390428074396,7.5));
#507=UNCERTAINTY_MEASURE_WITH_UNIT(LENGTH_MEASURE(0.01),#511,
'DISTANCE_ACCURACY_VALUE',
'Maximum model space distance between geometric entities at asserted c
onnectivities');
#508=UNCERTAINTY_MEASURE_WITH_UNIT(LENGTH_MEASURE(0.01),#511,
'DISTANCE_ACCURACY_VALUE',
'Maximum model space distance between geometric entities at asserted c
onnectivities');
#509=(
GEOMETRIC_REPRESENTATION_CONTEXT(3)
GLOBAL_UNCERTAINTY_ASSIGNED_CONTEXT((#507))
GLOBAL_UNIT_ASSIGNED_CONTEXT((#511,#513,#514))
REPRESENTATION_CONTEXT('','3D')
);
#510=(
GEOMETRIC_REPRESENTATION_CONTEXT(3)
GLOBAL_UNCERTAINTY_ASSIGNED_CONTEXT((#508))
GLOBAL_UNIT_ASSIGNED_CONTEXT((#511,#513,#514))
REPRESENTATION_CONTEXT('','3D')
);
#511=(
LENGTH_UNIT()
NAMED_UNIT(*)
SI_UNIT(.MILLI.,.METRE.)
);
#512=(
LENGTH_UNIT()
NAMED_UNIT(*)
SI_UNIT($,.METRE.)
);
#513=(
NAMED_UNIT(*)
PLANE_ANGLE_UNIT()
SI_UNIT($,.RADIAN.)
);
#514=(
NAMED_UNIT(*)
SI_UNIT($,.STERADIAN.)
SOLID_ANGLE_UNIT()
);
#515=SHAPE_DEFINITION_REPRESENTATION(#516,#517);
#516=PRODUCT_DEFINITION_SHAPE('',$,#519);
#517=SHAPE_REPRESENTATION('',(#290),#509);
#518=PRODUCT_DEFINITION_CONTEXT('part definition',#523,'design');
#519=PRODUCT_DEFINITION('Sans nom','Sans nom v1',#520,#518);
#520=PRODUCT_DEFINITION_FORMATION('',$,#525);
#521=PRODUCT_RELATED_PRODUCT_CATEGORY('Sans nom v1','Sans nom v1',(#525));
#522=APPLICATION_PROTOCOL_DEFINITION('international standard',
'automotive_design',2009,#523);
#523=APPLICATION_CONTEXT(
'Core Data for Automotive Mechanical Design Process');
#524=PRODUCT_CONTEXT('part definition',#523,'mechanical');
#525=PRODUCT('Sans nom','Sans nom v1',$,(#524));
#526=PRESENTATION_STYLE_ASSIGNMENT((#527));
#527=SURFACE_STYLE_USAGE(.BOTH.,#528);
#528=SURFACE_SIDE_STYLE('',(#529));
#529=SURFACE_STYLE_FILL_AREA(#530);
#530=FILL_AREA_STYLE('Acier - Satin\X\E9',(#531));
#531=FILL_AREA_STYLE_COLOUR('Acier - Satin\X\E9',#532);
#532=COLOUR_RGB('Acier - Satin\X\E9',0.627450980392157,0.627450980392157,
0.627450980392157);
ENDSEC;
END-ISO-10303-21;
